ISO-10303-21;
HEADER;
FILE_DESCRIPTION (( 'STEP AP203' ),
    '1' );
FILE_NAME ('Q-OZHWP-R2-20-780-M.STEP',
    '2020-12-22T09:17:06',
    ( '' ),
    ( '' ),
    'SwSTEP 2.0',
    'SolidWorks 2020',
    '' );
FILE_SCHEMA (( 'CONFIG_CONTROL_DESIGN' ));
ENDSEC;

DATA;
#1 = CC_DESIGN_DATE_AND_TIME_ASSIGNMENT ( #298, #104, ( #83 ) ) ;
#2 = DIRECTION ( 'NONE',  ( 0.000000000000000000, 0.000000000000000000, -1.000000000000000000 ) ) ;
#3 = DIRECTION ( 'NONE',  ( -1.000000000000000000, -0.000000000000000000, -0.000000000000000000 ) ) ;
#4 = ORIENTED_EDGE ( 'NONE', *, *, #284, .F. ) ;
#5 = CIRCLE ( 'NONE', #271, 12.69999999999999929 ) ;
#6 = EDGE_LOOP ( 'NONE', ( #105, #196, #135, #275 ) ) ;
#7 = ORIENTED_EDGE ( 'NONE', *, *, #115, .F. ) ;
#8 = DIRECTION ( 'NONE',  ( 0.000000000000000000, 0.000000000000000000, 1.000000000000000000 ) ) ;
#9 = APPROVAL_STATUS ( 'not_yet_approved' ) ;
#10 = ORIENTED_EDGE ( 'NONE', *, *, #61, .T. ) ;
#11 = ORIENTED_EDGE ( 'NONE', *, *, #47, .F. ) ;
#12 = FACE_BOUND ( 'NONE', #320, .T. ) ;
#13 = CC_DESIGN_PERSON_AND_ORGANIZATION_ASSIGNMENT ( #141, #272, ( #172 ) ) ;
#14 = CYLINDRICAL_SURFACE ( 'NONE', #319, 12.69999999999999929 ) ;
#15 = CARTESIAN_POINT ( 'NONE',  ( 2.500000000000000888, 0.000000000000000000, 10.00000000000000000 ) ) ;
#16 = CIRCLE ( 'NONE', #153, 12.69999999999999929 ) ;
#17 = CIRCLE ( 'NONE', #24, 10.00000000000000000 ) ;
#18 = DIRECTION ( 'NONE',  ( -1.000000000000000000, -0.000000000000000000, -0.000000000000000000 ) ) ;
#19 = LOCAL_TIME ( 17, 17, 6.000000000000000000, #77 ) ;
#20 = CYLINDRICAL_SURFACE ( 'NONE', #48, 10.00000000000000000 ) ;
#21 = DIRECTION ( 'NONE',  ( 0.000000000000000000, 0.000000000000000000, -1.000000000000000000 ) ) ;
#22 = FACE_OUTER_BOUND ( 'NONE', #102, .T. ) ;
#23 = CARTESIAN_POINT ( 'NONE',  ( -2.500000000000000444, 0.000000000000000000, 10.00000000000000000 ) ) ;
#24 = AXIS2_PLACEMENT_3D ( 'NONE', #118, #111, #70 ) ;
#25 = PERSON_AND_ORGANIZATION_ROLE ( 'design_supplier' ) ;
#26 = DIRECTION ( 'NONE',  ( 0.000000000000000000, 0.000000000000000000, 1.000000000000000000 ) ) ;
#27 = DATE_TIME_ROLE ( 'classification_date' ) ;
#28 = EDGE_LOOP ( 'NONE', ( #7, #35, #10, #65 ) ) ;
#29 = ORIENTED_EDGE ( 'NONE', *, *, #185, .F. ) ;
#30 = CC_DESIGN_APPROVAL ( #297, ( #83 ) ) ;
#31 = CARTESIAN_POINT ( 'NONE',  ( -1.614212418857619014, 0.000000000000000000, 10.00000000000000000 ) ) ;
#32 = COORDINATED_UNIVERSAL_TIME_OFFSET ( 8, 0, .AHEAD. ) ;
#33 = APPROVAL ( #301, 'UNSPECIFIED' ) ;
#34 = ORIENTED_EDGE ( 'NONE', *, *, #101, .F. ) ;
#35 = ORIENTED_EDGE ( 'NONE', *, *, #248, .T. ) ;
#36 = DIRECTION ( 'NONE',  ( 0.000000000000000000, 0.000000000000000000, 1.000000000000000000 ) ) ;
#37 = CARTESIAN_POINT ( 'NONE',  ( 2.500000000000000444, 10.00000000000000000, 0.000000000000000000 ) ) ;
#38 = APPLICATION_PROTOCOL_DEFINITION ( 'international standard', 'config_control_design', 1994, #190 ) ;
#39 = DIRECTION ( 'NONE',  ( -1.000000000000000000, -0.000000000000000000, -0.000000000000000000 ) ) ;
#40 = DIRECTION ( 'NONE',  ( -1.000000000000000000, -0.000000000000000000, -0.000000000000000000 ) ) ;
#41 = PRODUCT_RELATED_PRODUCT_CATEGORY ( 'detail', '', ( #172 ) ) ;
#42 = DIRECTION ( 'NONE',  ( 0.000000000000000000, 0.000000000000000000, -1.000000000000000000 ) ) ;
#43 = CLOSED_SHELL ( 'NONE', ( #266, #74, #66, #159, #122, #230, #51, #173, #306, #139 ) ) ;
#44 = CIRCLE ( 'NONE', #286, 10.00000000000000000 ) ;
#45 = FACE_OUTER_BOUND ( 'NONE', #236, .T. ) ;
#46 = DIRECTION ( 'NONE',  ( 0.000000000000000000, 0.000000000000000000, 1.000000000000000000 ) ) ;
#47 = EDGE_CURVE ( 'NONE', #79, #267, #75, .T. ) ;
#48 = AXIS2_PLACEMENT_3D ( 'NONE', #121, #100, #46 ) ;
#49 = SECURITY_CLASSIFICATION ( '', '', #218 ) ;
#50 = CARTESIAN_POINT ( 'NONE',  ( 3.000000000000000000, 0.000000000000000000, 0.000000000000000000 ) ) ;
#51 = ADVANCED_FACE ( 'NONE', ( #256, #76 ), #184, .F. ) ;
#52 = ORIENTED_EDGE ( 'NONE', *, *, #211, .T. ) ;
#53 = DATE_AND_TIME ( #186, #19 ) ;
#54 = CARTESIAN_POINT ( 'NONE',  ( -3.000000000000000000, 0.000000000000000000, 0.000000000000000000 ) ) ;
#55 = ORIENTED_EDGE ( 'NONE', *, *, #133, .F. ) ;
#56 = AXIS2_PLACEMENT_3D ( 'NONE', #92, #178, #208 ) ;
#57 = APPROVAL_DATE_TIME ( #125, #322 ) ;
#58 = ORIENTED_EDGE ( 'NONE', *, *, #179, .T. ) ;
#59 = COORDINATED_UNIVERSAL_TIME_OFFSET ( 8, 0, .AHEAD. ) ;
#60 = VERTEX_POINT ( 'NONE', #123 ) ;
#61 = EDGE_CURVE ( 'NONE', #294, #158, #187, .T. ) ;
#62 = ORIENTED_EDGE ( 'NONE', *, *, #284, .T. ) ;
#63 = CC_DESIGN_APPROVAL ( #322, ( #49 ) ) ;
#64 = CALENDAR_DATE ( 2020, 22, 12 ) ;
#65 = ORIENTED_EDGE ( 'NONE', *, *, #179, .F. ) ;
#66 = ADVANCED_FACE ( 'NONE', ( #22 ), #312, .F. ) ;
#67 =( NAMED_UNIT ( * ) PLANE_ANGLE_UNIT ( ) SI_UNIT ( $, .RADIAN. ) );
#68 = DIRECTION ( 'NONE',  ( -1.000000000000000000, -0.000000000000000000, -0.000000000000000000 ) ) ;
#69 = VECTOR ( 'NONE', #329, 1000.000000000000000 ) ;
#70 = DIRECTION ( 'NONE',  ( 0.000000000000000000, 0.000000000000000000, 1.000000000000000000 ) ) ;
#71 = CARTESIAN_POINT ( 'NONE',  ( 2.999999999999999112, 1.224646799147353256E-15, -10.00000000000000000 ) ) ;
#72 = EDGE_CURVE ( 'NONE', #267, #79, #293, .T. ) ;
#73 = LINE ( 'NONE', #97, #240 ) ;
#74 = ADVANCED_FACE ( 'NONE', ( #315 ), #20, .F. ) ;
#75 = CIRCLE ( 'NONE', #228, 10.00000000000000000 ) ;
#76 = FACE_OUTER_BOUND ( 'NONE', #81, .T. ) ;
#77 = COORDINATED_UNIVERSAL_TIME_OFFSET ( 8, 0, .AHEAD. ) ;
#78 = DIRECTION ( 'NONE',  ( 0.000000000000000000, 0.000000000000000000, 1.000000000000000000 ) ) ;
#79 = VERTEX_POINT ( 'NONE', #23 ) ;
#80 = APPROVAL_ROLE ( '' ) ;
#81 = EDGE_LOOP ( 'NONE', ( #299, #58 ) ) ;
#82 = EDGE_LOOP ( 'NONE', ( #249, #224 ) ) ;
#83 = PRODUCT_DEFINITION ( 'UNKNOWN', '', #91, #109 ) ;
#84 = CALENDAR_DATE ( 2020, 22, 12 ) ;
#85 = ORIENTED_EDGE ( 'NONE', *, *, #211, .F. ) ;
#86 = APPROVAL_DATE_TIME ( #243, #297 ) ;
#87 = ORIENTED_EDGE ( 'NONE', *, *, #311, .F. ) ;
#88 = UNCERTAINTY_MEASURE_WITH_UNIT (LENGTH_MEASURE( 1.000000000000000082E-05 ), #280, 'distance_accuracy_value', 'NONE');
#89 = DIRECTION ( 'NONE',  ( -0.000000000000000000, 0.000000000000000000, 1.000000000000000000 ) ) ;
#90 = CARTESIAN_POINT ( 'NONE',  ( 2.999999999999999112, 0.000000000000000000, 0.000000000000000000 ) ) ;
#91 = PRODUCT_DEFINITION_FORMATION_WITH_SPECIFIED_SOURCE ( 'ANY', '', #172, .NOT_KNOWN. ) ;
#92 = CARTESIAN_POINT ( 'NONE',  ( 3.000000000000000000, 0.000000000000000000, 0.000000000000000000 ) ) ;
#93 = CARTESIAN_POINT ( 'NONE',  ( -1.614212418857619014, 0.000000000000000000, 0.000000000000000000 ) ) ;
#94 = DIRECTION ( 'NONE',  ( -1.000000000000000000, -0.000000000000000000, -0.000000000000000000 ) ) ;
#95 = DIRECTION ( 'NONE',  ( -1.000000000000000000, -0.000000000000000000, -0.000000000000000000 ) ) ;
#96 = DIRECTION ( 'NONE',  ( 0.000000000000000000, 0.000000000000000000, -1.000000000000000000 ) ) ;
#97 = CARTESIAN_POINT ( 'NONE',  ( -1.614212418857619014, 0.000000000000000000, 10.00000000000000000 ) ) ;
#98 = CIRCLE ( 'NONE', #200, 10.00000000000000000 ) ;
#99 = APPROVAL_PERSON_ORGANIZATION ( #107, #297, #323 ) ;
#100 = DIRECTION ( 'NONE',  ( -1.000000000000000000, -0.000000000000000000, -0.000000000000000000 ) ) ;
#101 = EDGE_CURVE ( 'NONE', #163, #171, #73, .T. ) ;
#102 = EDGE_LOOP ( 'NONE', ( #87, #62, #128, #34 ) ) ;
#103 = CIRCLE ( 'NONE', #242, 10.00000000000000000 ) ;
#104 = DATE_TIME_ROLE ( 'creation_date' ) ;
#105 = ORIENTED_EDGE ( 'NONE', *, *, #47, .T. ) ;
#106 = CARTESIAN_POINT ( 'NONE',  ( -2.500000000000000444, 1.224646799147353256E-15, -10.00000000000000000 ) ) ;
#107 = PERSON_AND_ORGANIZATION ( #287, #330 ) ;
#108 = ORIENTED_EDGE ( 'NONE', *, *, #61, .F. ) ;
#109 = DESIGN_CONTEXT ( 'detailed design', #308, 'design' ) ;
#110 = AXIS2_PLACEMENT_3D ( 'NONE', #93, #39, #254 ) ;
#111 = DIRECTION ( 'NONE',  ( -1.000000000000000000, -0.000000000000000000, -0.000000000000000000 ) ) ;
#112 = DIRECTION ( 'NONE',  ( 1.000000000000000000, 0.000000000000000000, 0.000000000000000000 ) ) ;
#113 = AXIS2_PLACEMENT_3D ( 'NONE', #212, #290, #78 ) ;
#114 = LINE ( 'NONE', #229, #69 ) ;
#115 = EDGE_CURVE ( 'NONE', #220, #60, #313, .T. ) ;
#116 = DIRECTION ( 'NONE',  ( 0.000000000000000000, 0.000000000000000000, 1.000000000000000000 ) ) ;
#117 = CARTESIAN_POINT ( 'NONE',  ( -1.614212418857619014, 0.000000000000000000, 0.000000000000000000 ) ) ;
#118 = CARTESIAN_POINT ( 'NONE',  ( -3.000000000000000444, 0.000000000000000000, 0.000000000000000000 ) ) ;
#119 = CARTESIAN_POINT ( 'NONE',  ( -2.500000000000000444, 0.000000000000000000, 0.000000000000000000 ) ) ;
#120 = CC_DESIGN_PERSON_AND_ORGANIZATION_ASSIGNMENT ( #317, #124, ( #49 ) ) ;
#121 = CARTESIAN_POINT ( 'NONE',  ( -1.614212418857619014, 0.000000000000000000, 0.000000000000000000 ) ) ;
#122 = ADVANCED_FACE ( 'NONE', ( #216 ), #149, .F. ) ;
#123 = CARTESIAN_POINT ( 'NONE',  ( -3.000000000000000000, 1.555301434917138433E-15, -12.69999999999999929 ) ) ;
#124 = PERSON_AND_ORGANIZATION_ROLE ( 'classification_officer' ) ;
#125 = DATE_AND_TIME ( #263, #213 ) ;
#126 = VERTEX_POINT ( 'NONE', #292 ) ;
#127 = PERSON_AND_ORGANIZATION ( #287, #330 ) ;
#128 = ORIENTED_EDGE ( 'NONE', *, *, #188, .T. ) ;
#129 = AXIS2_PLACEMENT_3D ( 'NONE', #279, #36, #112 ) ;
#130 = LINE ( 'NONE', #277, #251 ) ;
#131 = PERSON_AND_ORGANIZATION ( #287, #330 ) ;
#132 = VERTEX_POINT ( 'NONE', #161 ) ;
#133 = EDGE_CURVE ( 'NONE', #158, #60, #5, .T. ) ;
#134 =( NAMED_UNIT ( * ) SI_UNIT ( $, .STERADIAN. ) SOLID_ANGLE_UNIT ( ) );
#135 = ORIENTED_EDGE ( 'NONE', *, *, #156, .T. ) ;
#136 = MANIFOLD_SOLID_BREP ( 'Ðý×', #43 ) ;
#137 = DIRECTION ( 'NONE',  ( -1.000000000000000000, -0.000000000000000000, -0.000000000000000000 ) ) ;
#138 = AXIS2_PLACEMENT_3D ( 'NONE', #177, #259, #197 ) ;
#139 = ADVANCED_FACE ( 'NONE', ( #209 ), #289, .F. ) ;
#140 = CARTESIAN_POINT ( 'NONE',  ( 2.999999999999999112, 0.000000000000000000, 10.00000000000000000 ) ) ;
#141 = PERSON_AND_ORGANIZATION ( #287, #330 ) ;
#142 = EDGE_CURVE ( 'NONE', #294, #220, #16, .T. ) ;
#143 = CARTESIAN_POINT ( 'NONE',  ( 2.500000000000000888, 0.000000000000000000, 0.000000000000000000 ) ) ;
#144 = VECTOR ( 'NONE', #157, 1000.000000000000000 ) ;
#145 = CARTESIAN_POINT ( 'NONE',  ( -3.000000000000000000, 0.000000000000000000, 0.000000000000000000 ) ) ;
#146 = CARTESIAN_POINT ( 'NONE',  ( -3.000000000000000000, 10.00000000000000000, 0.000000000000000000 ) ) ;
#147 = AXIS2_PLACEMENT_3D ( 'NONE', #145, #175, #116 ) ;
#148 = CYLINDRICAL_SURFACE ( 'NONE', #138, 12.69999999999999929 ) ;
#149 = CYLINDRICAL_SURFACE ( 'NONE', #113, 10.00000000000000000 ) ;
#150 = CC_DESIGN_DATE_AND_TIME_ASSIGNMENT ( #53, #27, ( #49 ) ) ;
#151 = PRODUCT_DEFINITION_SHAPE ( 'NONE', 'NONE',  #83 ) ;
#152 = VECTOR ( 'NONE', #94, 1000.000000000000000 ) ;
#153 = AXIS2_PLACEMENT_3D ( 'NONE', #50, #95, #333 ) ;
#154 = CC_DESIGN_APPROVAL ( #33, ( #91 ) ) ;
#155 = CARTESIAN_POINT ( 'NONE',  ( -2.500000000000000444, 0.000000000000000000, 0.000000000000000000 ) ) ;
#156 = EDGE_CURVE ( 'NONE', #126, #132, #17, .T. ) ;
#157 = DIRECTION ( 'NONE',  ( -1.000000000000000000, -0.000000000000000000, -0.000000000000000000 ) ) ;
#158 = VERTEX_POINT ( 'NONE', #309 ) ;
#159 = ADVANCED_FACE ( 'NONE', ( #233 ), #203, .F. ) ;
#160 = PERSON_AND_ORGANIZATION ( #287, #330 ) ;
#161 = CARTESIAN_POINT ( 'NONE',  ( -3.000000000000000444, 0.000000000000000000, 10.00000000000000000 ) ) ;
#162 = APPROVAL_STATUS ( 'not_yet_approved' ) ;
#163 = VERTEX_POINT ( 'NONE', #140 ) ;
#164 = DATE_AND_TIME ( #84, #305 ) ;
#165 = VERTEX_POINT ( 'NONE', #71 ) ;
#166 = AXIS2_PLACEMENT_3D ( 'NONE', #310, #260, #21 ) ;
#167 = COORDINATED_UNIVERSAL_TIME_OFFSET ( 8, 0, .AHEAD. ) ;
#168 = ORIENTED_EDGE ( 'NONE', *, *, #188, .F. ) ;
#169 = LOCAL_TIME ( 17, 17, 6.000000000000000000, #32 ) ;
#170 = CARTESIAN_POINT ( 'NONE',  ( 3.000000000000000000, 0.000000000000000000, 12.69999999999999929 ) ) ;
#171 = VERTEX_POINT ( 'NONE', #15 ) ;
#172 = PRODUCT ( 'Q-OZHWP-R2-20-780-M', 'Q-OZHWP-R2-20-780-M', '', ( #204 ) ) ;
#173 = ADVANCED_FACE ( 'NONE', ( #227 ), #14, .T. ) ;
#174 = PLANE ( 'NONE',  #192 ) ;
#175 = DIRECTION ( 'NONE',  ( -1.000000000000000000, -0.000000000000000000, -0.000000000000000000 ) ) ;
#176 = DIRECTION ( 'NONE',  ( 0.000000000000000000, 0.000000000000000000, 1.000000000000000000 ) ) ;
#177 = CARTESIAN_POINT ( 'NONE',  ( -1.614212418857619014, 0.000000000000000000, 0.000000000000000000 ) ) ;
#178 = DIRECTION ( 'NONE',  ( -1.000000000000000000, -0.000000000000000000, -0.000000000000000000 ) ) ;
#179 = EDGE_CURVE ( 'NONE', #60, #158, #257, .T. ) ;
#180 = DIRECTION ( 'NONE',  ( 1.000000000000000000, 0.000000000000000000, 0.000000000000000000 ) ) ;
#181 = AXIS2_PLACEMENT_3D ( 'NONE', #255, #68, #283 ) ;
#182 = LOCAL_TIME ( 17, 17, 6.000000000000000000, #167 ) ;
#183 = DIRECTION ( 'NONE',  ( 0.000000000000000000, 0.000000000000000000, 1.000000000000000000 ) ) ;
#184 = PLANE ( 'NONE',  #278 ) ;
#185 = EDGE_CURVE ( 'NONE', #163, #165, #235, .T. ) ;
#186 = CALENDAR_DATE ( 2020, 22, 12 ) ;
#187 = LINE ( 'NONE', #285, #152 ) ;
#188 = EDGE_CURVE ( 'NONE', #302, #171, #219, .T. ) ;
#189 = ORIENTED_EDGE ( 'NONE', *, *, #248, .F. ) ;
#190 = APPLICATION_CONTEXT ( 'configuration controlled 3d designs of mechanical parts and assemblies' ) ;
#191 = COORDINATED_UNIVERSAL_TIME_OFFSET ( 8, 0, .AHEAD. ) ;
#192 = AXIS2_PLACEMENT_3D ( 'NONE', #252, #327, #89 ) ;
#193 = EDGE_LOOP ( 'NONE', ( #4, #29, #247, #52 ) ) ;
#194 = ORIENTED_EDGE ( 'NONE', *, *, #237, .F. ) ;
#195 = APPROVAL_DATE_TIME ( #164, #33 ) ;
#196 = ORIENTED_EDGE ( 'NONE', *, *, #237, .T. ) ;
#197 = DIRECTION ( 'NONE',  ( 0.000000000000000000, 0.000000000000000000, 1.000000000000000000 ) ) ;
#198 = PERSON_AND_ORGANIZATION ( #287, #330 ) ;
#199 = ORIENTED_EDGE ( 'NONE', *, *, #72, .F. ) ;
#200 = AXIS2_PLACEMENT_3D ( 'NONE', #143, #307, #231 ) ;
#201 = DIRECTION ( 'NONE',  ( -1.000000000000000000, -0.000000000000000000, -0.000000000000000000 ) ) ;
#202 = CARTESIAN_POINT ( 'NONE',  ( 2.500000000000000888, 1.224646799147353256E-15, -10.00000000000000000 ) ) ;
#203 = PLANE ( 'NONE',  #241 ) ;
#204 = MECHANICAL_CONTEXT ( 'NONE', #190, 'mechanical' ) ;
#205 = DIRECTION ( 'NONE',  ( 0.000000000000000000, 0.000000000000000000, 1.000000000000000000 ) ) ;
#206 =( GEOMETRIC_REPRESENTATION_CONTEXT ( 3 ) GLOBAL_UNCERTAINTY_ASSIGNED_CONTEXT ( ( #88 ) ) GLOBAL_UNIT_ASSIGNED_CONTEXT ( ( #280, #67, #134 ) ) REPRESENTATION_CONTEXT ( 'NONE', 'WORKASPACE' ) );
#207 = DIRECTION ( 'NONE',  ( 0.000000000000000000, 0.000000000000000000, 1.000000000000000000 ) ) ;
#208 = DIRECTION ( 'NONE',  ( 0.000000000000000000, 0.000000000000000000, 1.000000000000000000 ) ) ;
#209 = FACE_OUTER_BOUND ( 'NONE', #234, .T. ) ;
#210 = CIRCLE ( 'NONE', #56, 12.69999999999999929 ) ;
#211 = EDGE_CURVE ( 'NONE', #171, #302, #98, .T. ) ;
#212 = CARTESIAN_POINT ( 'NONE',  ( -1.614212418857619014, 0.000000000000000000, 0.000000000000000000 ) ) ;
#213 = LOCAL_TIME ( 17, 17, 6.000000000000000000, #191 ) ;
#214 = ORIENTED_EDGE ( 'NONE', *, *, #115, .T. ) ;
#215 = CC_DESIGN_PERSON_AND_ORGANIZATION_ASSIGNMENT ( #127, #223, ( #83 ) ) ;
#216 = FACE_OUTER_BOUND ( 'NONE', #193, .T. ) ;
#217 = PERSON_AND_ORGANIZATION ( #287, #330 ) ;
#218 = SECURITY_CLASSIFICATION_LEVEL ( 'unclassified' ) ;
#219 = CIRCLE ( 'NONE', #181, 10.00000000000000000 ) ;
#220 = VERTEX_POINT ( 'NONE', #304 ) ;
#221 = APPROVAL_ROLE ( '' ) ;
#222 = EDGE_LOOP ( 'NONE', ( #85, #168 ) ) ;
#223 = PERSON_AND_ORGANIZATION_ROLE ( 'creator' ) ;
#224 = ORIENTED_EDGE ( 'NONE', *, *, #156, .F. ) ;
#225 = EDGE_CURVE ( 'NONE', #132, #126, #44, .T. ) ;
#226 = DIRECTION ( 'NONE',  ( -1.000000000000000000, -0.000000000000000000, -0.000000000000000000 ) ) ;
#227 = FACE_OUTER_BOUND ( 'NONE', #28, .T. ) ;
#228 = AXIS2_PLACEMENT_3D ( 'NONE', #155, #180, #42 ) ;
#229 = CARTESIAN_POINT ( 'NONE',  ( -1.614212418857619014, 1.224646799147353256E-15, -10.00000000000000000 ) ) ;
#230 = ADVANCED_FACE ( 'NONE', ( #281 ), #331, .F. ) ;
#231 = DIRECTION ( 'NONE',  ( 0.000000000000000000, 0.000000000000000000, 1.000000000000000000 ) ) ;
#232 = CARTESIAN_POINT ( 'NONE',  ( -1.614212418857619014, 1.555301434917138433E-15, -12.69999999999999929 ) ) ;
#233 = FACE_OUTER_BOUND ( 'NONE', #222, .T. ) ;
#234 = EDGE_LOOP ( 'NONE', ( #11, #199 ) ) ;
#235 = CIRCLE ( 'NONE', #295, 10.00000000000000000 ) ;
#236 = EDGE_LOOP ( 'NONE', ( #321, #214, #55, #108 ) ) ;
#237 = EDGE_CURVE ( 'NONE', #267, #126, #114, .T. ) ;
#238 = DIRECTION ( 'NONE',  ( 1.000000000000000000, 0.000000000000000000, 0.000000000000000000 ) ) ;
#239 = ORIENTED_EDGE ( 'NONE', *, *, #311, .T. ) ;
#240 = VECTOR ( 'NONE', #3, 1000.000000000000000 ) ;
#241 = AXIS2_PLACEMENT_3D ( 'NONE', #37, #303, #253 ) ;
#242 = AXIS2_PLACEMENT_3D ( 'NONE', #325, #226, #8 ) ;
#243 = DATE_AND_TIME ( #274, #182 ) ;
#244 = CC_DESIGN_PERSON_AND_ORGANIZATION_ASSIGNMENT ( #131, #246, ( #91 ) ) ;
#245 = ORIENTED_EDGE ( 'NONE', *, *, #225, .T. ) ;
#246 = PERSON_AND_ORGANIZATION_ROLE ( 'creator' ) ;
#247 = ORIENTED_EDGE ( 'NONE', *, *, #101, .T. ) ;
#248 = EDGE_CURVE ( 'NONE', #220, #294, #210, .T. ) ;
#249 = ORIENTED_EDGE ( 'NONE', *, *, #225, .F. ) ;
#250 = FACE_OUTER_BOUND ( 'NONE', #276, .T. ) ;
#251 = VECTOR ( 'NONE', #137, 1000.000000000000000 ) ;
#252 = CARTESIAN_POINT ( 'NONE',  ( 2.999999999999999112, 12.69999999999999929, 0.000000000000000000 ) ) ;
#253 = DIRECTION ( 'NONE',  ( -0.000000000000000000, 0.000000000000000000, 1.000000000000000000 ) ) ;
#254 = DIRECTION ( 'NONE',  ( 0.000000000000000000, 0.000000000000000000, 1.000000000000000000 ) ) ;
#255 = CARTESIAN_POINT ( 'NONE',  ( 2.500000000000000888, 0.000000000000000000, 0.000000000000000000 ) ) ;
#256 = FACE_BOUND ( 'NONE', #82, .T. ) ;
#257 = CIRCLE ( 'NONE', #147, 12.69999999999999929 ) ;
#258 = APPROVAL_PERSON_ORGANIZATION ( #160, #322, #80 ) ;
#259 = DIRECTION ( 'NONE',  ( -1.000000000000000000, -0.000000000000000000, -0.000000000000000000 ) ) ;
#260 = DIRECTION ( 'NONE',  ( 1.000000000000000000, 0.000000000000000000, 0.000000000000000000 ) ) ;
#261 = AXIS2_PLACEMENT_3D ( 'NONE', #119, #334, #2 ) ;
#262 = SHAPE_DEFINITION_REPRESENTATION ( #151, #314 ) ;
#263 = CALENDAR_DATE ( 2020, 22, 12 ) ;
#264 = DIRECTION ( 'NONE',  ( -1.000000000000000000, -0.000000000000000000, -0.000000000000000000 ) ) ;
#265 = EDGE_LOOP ( 'NONE', ( #194, #316, #270, #245 ) ) ;
#266 = ADVANCED_FACE ( 'NONE', ( #45 ), #148, .T. ) ;
#267 = VERTEX_POINT ( 'NONE', #106 ) ;
#268 = EDGE_CURVE ( 'NONE', #79, #132, #300, .T. ) ;
#269 = APPLICATION_PROTOCOL_DEFINITION ( 'international standard', 'config_control_design', 1994, #308 ) ;
#270 = ORIENTED_EDGE ( 'NONE', *, *, #268, .T. ) ;
#271 = AXIS2_PLACEMENT_3D ( 'NONE', #54, #264, #183 ) ;
#272 = PERSON_AND_ORGANIZATION_ROLE ( 'design_owner' ) ;
#273 = APPROVAL_PERSON_ORGANIZATION ( #198, #33, #221 ) ;
#274 = CALENDAR_DATE ( 2020, 22, 12 ) ;
#275 = ORIENTED_EDGE ( 'NONE', *, *, #268, .F. ) ;
#276 = EDGE_LOOP ( 'NONE', ( #324, #189 ) ) ;
#277 = CARTESIAN_POINT ( 'NONE',  ( -1.614212418857619014, 1.224646799147353256E-15, -10.00000000000000000 ) ) ;
#278 = AXIS2_PLACEMENT_3D ( 'NONE', #146, #238, #96 ) ;
#279 = CARTESIAN_POINT ( 'NONE',  ( 0.000000000000000000, 0.000000000000000000, 0.000000000000000000 ) ) ;
#280 =( LENGTH_UNIT ( ) NAMED_UNIT ( * ) SI_UNIT ( .MILLI., .METRE. ) );
#281 = FACE_OUTER_BOUND ( 'NONE', #265, .T. ) ;
#282 = CARTESIAN_POINT ( 'NONE',  ( -3.000000000000000444, 0.000000000000000000, 0.000000000000000000 ) ) ;
#283 = DIRECTION ( 'NONE',  ( 0.000000000000000000, 0.000000000000000000, 1.000000000000000000 ) ) ;
#284 = EDGE_CURVE ( 'NONE', #165, #302, #130, .T. ) ;
#285 = CARTESIAN_POINT ( 'NONE',  ( -1.614212418857619014, 0.000000000000000000, 12.69999999999999929 ) ) ;
#286 = AXIS2_PLACEMENT_3D ( 'NONE', #282, #40, #176 ) ;
#287 = PERSON ( 'UNSPECIFIED', 'UNSPECIFIED', 'UNSPECIFIED', ('UNSPECIFIED'), ('UNSPECIFIED'), ('UNSPECIFIED') ) ;
#288 = CC_DESIGN_SECURITY_CLASSIFICATION ( #49, ( #91 ) ) ;
#289 = PLANE ( 'NONE',  #166 ) ;
#290 = DIRECTION ( 'NONE',  ( -1.000000000000000000, -0.000000000000000000, -0.000000000000000000 ) ) ;
#291 = CC_DESIGN_PERSON_AND_ORGANIZATION_ASSIGNMENT ( #217, #25, ( #91 ) ) ;
#292 = CARTESIAN_POINT ( 'NONE',  ( -3.000000000000000444, 1.224646799147353256E-15, -10.00000000000000000 ) ) ;
#293 = CIRCLE ( 'NONE', #261, 10.00000000000000000 ) ;
#294 = VERTEX_POINT ( 'NONE', #170 ) ;
#295 = AXIS2_PLACEMENT_3D ( 'NONE', #90, #18, #205 ) ;
#296 = ORIENTED_EDGE ( 'NONE', *, *, #185, .T. ) ;
#297 = APPROVAL ( #9, 'UNSPECIFIED' ) ;
#298 = DATE_AND_TIME ( #64, #169 ) ;
#299 = ORIENTED_EDGE ( 'NONE', *, *, #133, .T. ) ;
#300 = LINE ( 'NONE', #31, #335 ) ;
#301 = APPROVAL_STATUS ( 'not_yet_approved' ) ;
#302 = VERTEX_POINT ( 'NONE', #202 ) ;
#303 = DIRECTION ( 'NONE',  ( -1.000000000000000000, 0.000000000000000000, -0.000000000000000000 ) ) ;
#304 = CARTESIAN_POINT ( 'NONE',  ( 3.000000000000000000, 1.555301434917138433E-15, -12.69999999999999929 ) ) ;
#305 = LOCAL_TIME ( 17, 17, 6.000000000000000000, #59 ) ;
#306 = ADVANCED_FACE ( 'NONE', ( #250, #12 ), #174, .F. ) ;
#307 = DIRECTION ( 'NONE',  ( -1.000000000000000000, -0.000000000000000000, -0.000000000000000000 ) ) ;
#308 = APPLICATION_CONTEXT ( 'configuration controlled 3d designs of mechanical parts and assemblies' ) ;
#309 = CARTESIAN_POINT ( 'NONE',  ( -3.000000000000000000, 0.000000000000000000, 12.69999999999999929 ) ) ;
#310 = CARTESIAN_POINT ( 'NONE',  ( -2.500000000000000444, 10.00000000000000000, 0.000000000000000000 ) ) ;
#311 = EDGE_CURVE ( 'NONE', #165, #163, #103, .T. ) ;
#312 = CYLINDRICAL_SURFACE ( 'NONE', #318, 10.00000000000000000 ) ;
#313 = LINE ( 'NONE', #232, #144 ) ;
#314 = ADVANCED_BREP_SHAPE_REPRESENTATION ( 'Q-OZHWP-R2-20-780-M', ( #136, #129 ), #206 ) ;
#315 = FACE_OUTER_BOUND ( 'NONE', #6, .T. ) ;
#316 = ORIENTED_EDGE ( 'NONE', *, *, #72, .T. ) ;
#317 = PERSON_AND_ORGANIZATION ( #287, #330 ) ;
#318 = AXIS2_PLACEMENT_3D ( 'NONE', #117, #332, #26 ) ;
#319 = AXIS2_PLACEMENT_3D ( 'NONE', #326, #328, #207 ) ;
#320 = EDGE_LOOP ( 'NONE', ( #296, #239 ) ) ;
#321 = ORIENTED_EDGE ( 'NONE', *, *, #142, .T. ) ;
#322 = APPROVAL ( #162, 'UNSPECIFIED' ) ;
#323 = APPROVAL_ROLE ( '' ) ;
#324 = ORIENTED_EDGE ( 'NONE', *, *, #142, .F. ) ;
#325 = CARTESIAN_POINT ( 'NONE',  ( 2.999999999999999112, 0.000000000000000000, 0.000000000000000000 ) ) ;
#326 = CARTESIAN_POINT ( 'NONE',  ( -1.614212418857619014, 0.000000000000000000, 0.000000000000000000 ) ) ;
#327 = DIRECTION ( 'NONE',  ( -1.000000000000000000, 0.000000000000000000, -0.000000000000000000 ) ) ;
#328 = DIRECTION ( 'NONE',  ( -1.000000000000000000, -0.000000000000000000, -0.000000000000000000 ) ) ;
#329 = DIRECTION ( 'NONE',  ( -1.000000000000000000, -0.000000000000000000, -0.000000000000000000 ) ) ;
#330 = ORGANIZATION ( 'UNSPECIFIED', 'UNSPECIFIED', '' ) ;
#331 = CYLINDRICAL_SURFACE ( 'NONE', #110, 10.00000000000000000 ) ;
#332 = DIRECTION ( 'NONE',  ( -1.000000000000000000, -0.000000000000000000, -0.000000000000000000 ) ) ;
#333 = DIRECTION ( 'NONE',  ( 0.000000000000000000, 0.000000000000000000, 1.000000000000000000 ) ) ;
#334 = DIRECTION ( 'NONE',  ( 1.000000000000000000, 0.000000000000000000, 0.000000000000000000 ) ) ;
#335 = VECTOR ( 'NONE', #201, 1000.000000000000000 ) ;
ENDSEC;
END-ISO-10303-21;
